ISO-10303-21;
HEADER;
FILE_DESCRIPTION (( 'STEP AP203' ),
    '1' );
FILE_NAME ('BK7-LPBSC-10-860.STEP',
    '2020-12-22T03:10:40',
    ( '' ),
    ( '' ),
    'SwSTEP 2.0',
    'SolidWorks 2020',
    '' );
FILE_SCHEMA (( 'CONFIG_CONTROL_DESIGN' ));
ENDSEC;

DATA;
#1 = CARTESIAN_POINT ( 'NONE',  ( 5.000000000000002665, 5.000000000000000000, -5.000000000000000000 ) ) ;
#2 = PLANE ( 'NONE',  #82 ) ;
#3 = SHAPE_DEFINITION_REPRESENTATION ( #244, #44 ) ;
#4 = EDGE_LOOP ( 'NONE', ( #89, #121, #153 ) ) ;
#5 = PLANE ( 'NONE',  #135 ) ;
#6 = DIRECTION ( 'NONE',  ( 1.000000000000000000, -4.857225732735059864E-17, 0.000000000000000000 ) ) ;
#7 = ORIENTED_EDGE ( 'NONE', *, *, #46, .T. ) ;
#8 = LINE ( 'NONE', #117, #17 ) ;
#9 = CARTESIAN_POINT ( 'NONE',  ( 5.000000000000002665, 5.000000000000000000, 5.000000000000000000 ) ) ;
#10 = ORIENTED_EDGE ( 'NONE', *, *, #66, .F. ) ;
#11 = DIRECTION ( 'NONE',  ( 1.000000000000000000, 0.000000000000000000, 0.000000000000000000 ) ) ;
#12 = CC_DESIGN_DATE_AND_TIME_ASSIGNMENT ( #144, #95, ( #120 ) ) ;
#13 = CARTESIAN_POINT ( 'NONE',  ( 5.000000000000002665, 5.000000000000000000, -5.000000000000000000 ) ) ;
#14 = VERTEX_POINT ( 'NONE', #296 ) ;
#15 = EDGE_CURVE ( 'NONE', #297, #203, #222, .T. ) ;
#16 = FACE_OUTER_BOUND ( 'NONE', #236, .T. ) ;
#17 = VECTOR ( 'NONE', #231, 1000.000000000000000 ) ;
#18 = VECTOR ( 'NONE', #126, 1000.000000000000000 ) ;
#19 = CC_DESIGN_PERSON_AND_ORGANIZATION_ASSIGNMENT ( #80, #23, ( #256 ) ) ;
#20 = AXIS2_PLACEMENT_3D ( 'NONE', #136, #159, #161 ) ;
#21 = ADVANCED_FACE ( 'NONE', ( #42 ), #165, .F. ) ;
#22 = APPROVAL_ROLE ( '' ) ;
#23 = PERSON_AND_ORGANIZATION_ROLE ( 'design_supplier' ) ;
#24 = VECTOR ( 'NONE', #53, 1000.000000000000000 ) ;
#25 = CARTESIAN_POINT ( 'NONE',  ( -4.999999999999999112, -5.000000000000000000, 5.000000000000000000 ) ) ;
#26 = PERSON_AND_ORGANIZATION_ROLE ( 'creator' ) ;
#27 = PERSON_AND_ORGANIZATION ( #137, #47 ) ;
#28 = ORIENTED_EDGE ( 'NONE', *, *, #321, .T. ) ;
#29 = DIRECTION ( 'NONE',  ( 1.000000000000000000, 0.000000000000000000, 0.000000000000000000 ) ) ;
#30 = ORIENTED_EDGE ( 'NONE', *, *, #318, .T. ) ;
#31 = CARTESIAN_POINT ( 'NONE',  ( 5.000000000000002665, 5.000000000000000000, 5.000000000000000000 ) ) ;
#32 = CC_DESIGN_APPROVAL ( #71, ( #120 ) ) ;
#33 = LINE ( 'NONE', #255, #217 ) ;
#34 = ORIENTED_EDGE ( 'NONE', *, *, #321, .F. ) ;
#35 = FACE_OUTER_BOUND ( 'NONE', #258, .T. ) ;
#36 = CC_DESIGN_SECURITY_CLASSIFICATION ( #76, ( #256 ) ) ;
#37 = PRODUCT_RELATED_PRODUCT_CATEGORY ( 'detail', '', ( #272 ) ) ;
#38 = APPROVAL_ROLE ( '' ) ;
#39 = PERSON_AND_ORGANIZATION ( #137, #47 ) ;
#40 = ADVANCED_FACE ( 'NONE', ( #74 ), #45, .F. ) ;
#41 =( NAMED_UNIT ( * ) SI_UNIT ( $, .STERADIAN. ) SOLID_ANGLE_UNIT ( ) );
#42 = FACE_OUTER_BOUND ( 'NONE', #194, .T. ) ;
#43 = VECTOR ( 'NONE', #245, 1000.000000000000000 ) ;
#44 = ADVANCED_BREP_SHAPE_REPRESENTATION ( 'BK7-LPBSC-10-860', ( #72, #293, #270 ), #188 ) ;
#45 = PLANE ( 'NONE',  #298 ) ;
#46 = EDGE_CURVE ( 'NONE', #243, #284, #139, .T. ) ;
#47 = ORGANIZATION ( 'UNSPECIFIED', 'UNSPECIFIED', '' ) ;
#48 = CALENDAR_DATE ( 2020, 22, 12 ) ;
#49 = COORDINATED_UNIVERSAL_TIME_OFFSET ( 8, 0, .AHEAD. ) ;
#50 = LINE ( 'NONE', #225, #24 ) ;
#51 = APPROVAL_STATUS ( 'not_yet_approved' ) ;
#52 = AXIS2_PLACEMENT_3D ( 'NONE', #220, #269, #114 ) ;
#53 = DIRECTION ( 'NONE',  ( -0.7071067811865475727, -0.7071067811865474617, 0.000000000000000000 ) ) ;
#54 = DATE_TIME_ROLE ( 'classification_date' ) ;
#55 = ORIENTED_EDGE ( 'NONE', *, *, #66, .T. ) ;
#56 = CARTESIAN_POINT ( 'NONE',  ( -4.999999999999999112, -5.000000000000000000, 5.000000000000000000 ) ) ;
#57 = DIRECTION ( 'NONE',  ( 0.7071067811865475727, 0.7071067811865474617, 0.000000000000000000 ) ) ;
#58 = ORIENTED_EDGE ( 'NONE', *, *, #260, .F. ) ;
#59 = CC_DESIGN_PERSON_AND_ORGANIZATION_ASSIGNMENT ( #27, #26, ( #120 ) ) ;
#60 = DIRECTION ( 'NONE',  ( 1.734723475976807094E-16, 1.000000000000000000, -0.000000000000000000 ) ) ;
#61 = VERTEX_POINT ( 'NONE', #122 ) ;
#62 = LINE ( 'NONE', #208, #92 ) ;
#63 = EDGE_LOOP ( 'NONE', ( #273, #58, #87, #55 ) ) ;
#64 = LINE ( 'NONE', #196, #281 ) ;
#65 = PLANE ( 'NONE',  #20 ) ;
#66 = EDGE_CURVE ( 'NONE', #124, #109, #79, .T. ) ;
#67 = PERSON_AND_ORGANIZATION ( #137, #47 ) ;
#68 = APPROVAL_DATE_TIME ( #294, #71 ) ;
#69 = CC_DESIGN_PERSON_AND_ORGANIZATION_ASSIGNMENT ( #300, #247, ( #256 ) ) ;
#70 = CC_DESIGN_APPROVAL ( #309, ( #76 ) ) ;
#71 = APPROVAL ( #262, 'UNSPECIFIED' ) ;
#72 = MANIFOLD_SOLID_BREP ( 'Í¹Ì¨-À', #316 ) ;
#73 = CARTESIAN_POINT ( 'NONE',  ( -5.000000000000000888, -4.999999999999998224, 5.000000000000000000 ) ) ;
#74 = FACE_OUTER_BOUND ( 'NONE', #168, .T. ) ;
#75 = LOCAL_TIME ( 11, 10, 40.00000000000000000, #49 ) ;
#76 = SECURITY_CLASSIFICATION ( '', '', #116 ) ;
#77 = APPROVAL_ROLE ( '' ) ;
#78 = APPROVAL_STATUS ( 'not_yet_approved' ) ;
#79 = LINE ( 'NONE', #100, #212 ) ;
#80 = PERSON_AND_ORGANIZATION ( #137, #47 ) ;
#81 = ORIENTED_EDGE ( 'NONE', *, *, #267, .F. ) ;
#82 = AXIS2_PLACEMENT_3D ( 'NONE', #9, #286, #308 ) ;
#83 = CARTESIAN_POINT ( 'NONE',  ( -4.999999999999999112, -5.000000000000000000, 5.000000000000000000 ) ) ;
#84 = EDGE_CURVE ( 'NONE', #109, #14, #8, .T. ) ;
#85 = ORIENTED_EDGE ( 'NONE', *, *, #279, .F. ) ;
#86 = DIRECTION ( 'NONE',  ( -0.7071067811865475727, -0.7071067811865474617, 0.000000000000000000 ) ) ;
#87 = ORIENTED_EDGE ( 'NONE', *, *, #111, .F. ) ;
#88 = DIRECTION ( 'NONE',  ( -0.000000000000000000, 0.000000000000000000, 1.000000000000000000 ) ) ;
#89 = ORIENTED_EDGE ( 'NONE', *, *, #267, .T. ) ;
#90 = PLANE ( 'NONE',  #317 ) ;
#91 = APPLICATION_PROTOCOL_DEFINITION ( 'international standard', 'config_control_design', 1994, #101 ) ;
#92 = VECTOR ( 'NONE', #60, 1000.000000000000000 ) ;
#93 = CARTESIAN_POINT ( 'NONE',  ( -5.000000000000000888, -4.999999999999998224, 5.000000000000000000 ) ) ;
#94 = ADVANCED_FACE ( 'NONE', ( #274 ), #5, .F. ) ;
#95 = DATE_TIME_ROLE ( 'creation_date' ) ;
#96 = PERSON_AND_ORGANIZATION_ROLE ( 'classification_officer' ) ;
#97 = DIRECTION ( 'NONE',  ( -0.000000000000000000, -0.000000000000000000, -1.000000000000000000 ) ) ;
#98 = DIRECTION ( 'NONE',  ( -4.857225732735059864E-17, -1.000000000000000000, 0.000000000000000000 ) ) ;
#99 = ORIENTED_EDGE ( 'NONE', *, *, #264, .F. ) ;
#100 = CARTESIAN_POINT ( 'NONE',  ( -4.999999999999999112, -5.000000000000000000, 5.000000000000000000 ) ) ;
#101 = APPLICATION_CONTEXT ( 'configuration controlled 3d designs of mechanical parts and assemblies' ) ;
#102 = PLANE ( 'NONE',  #275 ) ;
#103 = DIRECTION ( 'NONE',  ( 0.000000000000000000, -0.000000000000000000, 1.000000000000000000 ) ) ;
#104 = CARTESIAN_POINT ( 'NONE',  ( -5.000000000000000888, -4.999999999999998224, -5.000000000000000000 ) ) ;
#105 = CARTESIAN_POINT ( 'NONE',  ( -4.999999999999999112, 5.000000000000001776, 5.000000000000000000 ) ) ;
#106 = VERTEX_POINT ( 'NONE', #195 ) ;
#107 = DIRECTION ( 'NONE',  ( -0.000000000000000000, -0.000000000000000000, -1.000000000000000000 ) ) ;
#108 = ADVANCED_FACE ( 'NONE', ( #251 ), #304, .F. ) ;
#109 = VERTEX_POINT ( 'NONE', #248 ) ;
#110 = APPROVAL_PERSON_ORGANIZATION ( #113, #215, #22 ) ;
#111 = EDGE_CURVE ( 'NONE', #124, #234, #307, .T. ) ;
#112 = VECTOR ( 'NONE', #204, 1000.000000000000000 ) ;
#113 = PERSON_AND_ORGANIZATION ( #137, #47 ) ;
#114 = DIRECTION ( 'NONE',  ( 0.000000000000000000, 0.000000000000000000, 1.000000000000000000 ) ) ;
#115 = AXIS2_PLACEMENT_3D ( 'NONE', #56, #282, #198 ) ;
#116 = SECURITY_CLASSIFICATION_LEVEL ( 'unclassified' ) ;
#117 = CARTESIAN_POINT ( 'NONE',  ( -4.999999999999999112, -5.000000000000000000, -5.000000000000000000 ) ) ;
#118 = VECTOR ( 'NONE', #107, 1000.000000000000000 ) ;
#119 = APPROVAL_DATE_TIME ( #246, #309 ) ;
#120 = PRODUCT_DEFINITION ( 'UNKNOWN', '', #256, #295 ) ;
#121 = ORIENTED_EDGE ( 'NONE', *, *, #111, .T. ) ;
#122 = CARTESIAN_POINT ( 'NONE',  ( 5.000000000000002665, 5.000000000000000000, 5.000000000000000000 ) ) ;
#123 = CARTESIAN_POINT ( 'NONE',  ( 5.000000000000000888, 5.000000000000001776, 5.000000000000000000 ) ) ;
#124 = VERTEX_POINT ( 'NONE', #25 ) ;
#125 = APPROVAL_PERSON_ORGANIZATION ( #67, #71, #38 ) ;
#126 = DIRECTION ( 'NONE',  ( -0.7071067811865475727, -0.7071067811865474617, 0.000000000000000000 ) ) ;
#127 = ORIENTED_EDGE ( 'NONE', *, *, #264, .T. ) ;
#128 = CARTESIAN_POINT ( 'NONE',  ( 5.000000000000002665, 5.000000000000000000, -5.000000000000000000 ) ) ;
#129 = ORIENTED_EDGE ( 'NONE', *, *, #132, .T. ) ;
#130 = LINE ( 'NONE', #105, #170 ) ;
#131 = VECTOR ( 'NONE', #6, 1000.000000000000000 ) ;
#132 = EDGE_CURVE ( 'NONE', #106, #297, #50, .T. ) ;
#133 = CALENDAR_DATE ( 2020, 22, 12 ) ;
#134 = COORDINATED_UNIVERSAL_TIME_OFFSET ( 8, 0, .AHEAD. ) ;
#135 = AXIS2_PLACEMENT_3D ( 'NONE', #146, #103, #174 ) ;
#136 = CARTESIAN_POINT ( 'NONE',  ( 0.000000000000000000, 0.000000000000000000, 5.000000000000000000 ) ) ;
#137 = PERSON ( 'UNSPECIFIED', 'UNSPECIFIED', 'UNSPECIFIED', ('UNSPECIFIED'), ('UNSPECIFIED'), ('UNSPECIFIED') ) ;
#138 = APPROVAL_PERSON_ORGANIZATION ( #302, #309, #77 ) ;
#139 = LINE ( 'NONE', #163, #233 ) ;
#140 = VECTOR ( 'NONE', #237, 1000.000000000000000 ) ;
#141 = DIRECTION ( 'NONE',  ( -0.7071067811865474617, 0.7071067811865475727, 0.000000000000000000 ) ) ;
#142 = COORDINATED_UNIVERSAL_TIME_OFFSET ( 8, 0, .AHEAD. ) ;
#143 = DIRECTION ( 'NONE',  ( 0.7071067811865475727, 0.7071067811865474617, 0.000000000000000000 ) ) ;
#144 = DATE_AND_TIME ( #48, #75 ) ;
#145 = VERTEX_POINT ( 'NONE', #169 ) ;
#146 = CARTESIAN_POINT ( 'NONE',  ( 0.000000000000000000, 0.000000000000000000, -5.000000000000000000 ) ) ;
#147 = LINE ( 'NONE', #177, #118 ) ;
#148 = CALENDAR_DATE ( 2020, 22, 12 ) ;
#149 = VERTEX_POINT ( 'NONE', #1 ) ;
#150 = APPLICATION_CONTEXT ( 'configuration controlled 3d designs of mechanical parts and assemblies' ) ;
#151 = ADVANCED_FACE ( 'NONE', ( #313 ), #152, .F. ) ;
#152 = PLANE ( 'NONE',  #209 ) ;
#153 = ORIENTED_EDGE ( 'NONE', *, *, #279, .T. ) ;
#154 = CARTESIAN_POINT ( 'NONE',  ( 0.000000000000000000, 0.000000000000000000, -5.000000000000000000 ) ) ;
#155 = EDGE_LOOP ( 'NONE', ( #200, #250, #290, #280 ) ) ;
#156 = CARTESIAN_POINT ( 'NONE',  ( -4.999999999999999112, 5.000000000000001776, -5.000000000000000000 ) ) ;
#157 = EDGE_LOOP ( 'NONE', ( #127, #7, #178 ) ) ;
#158 = LINE ( 'NONE', #235, #18 ) ;
#159 = DIRECTION ( 'NONE',  ( 0.000000000000000000, -0.000000000000000000, 1.000000000000000000 ) ) ;
#160 = CARTESIAN_POINT ( 'NONE',  ( 0.000000000000000000, 0.000000000000000000, 0.000000000000000000 ) ) ;
#161 = DIRECTION ( 'NONE',  ( 2.220446049250313081E-16, 1.000000000000000000, 0.000000000000000000 ) ) ;
#162 = ADVANCED_FACE ( 'NONE', ( #254 ), #102, .F. ) ;
#163 = CARTESIAN_POINT ( 'NONE',  ( -5.000000000000000888, -4.999999999999998224, -5.000000000000000000 ) ) ;
#164 = EDGE_CURVE ( 'NONE', #203, #106, #182, .T. ) ;
#165 = PLANE ( 'NONE',  #52 ) ;
#166 = VECTOR ( 'NONE', #29, 1000.000000000000000 ) ;
#167 = CALENDAR_DATE ( 2020, 22, 12 ) ;
#168 = EDGE_LOOP ( 'NONE', ( #99, #205, #129, #30 ) ) ;
#169 = CARTESIAN_POINT ( 'NONE',  ( 5.000000000000000888, 5.000000000000001776, -5.000000000000000000 ) ) ;
#170 = VECTOR ( 'NONE', #259, 1000.000000000000000 ) ;
#171 = DATE_AND_TIME ( #249, #214 ) ;
#172 = ORIENTED_EDGE ( 'NONE', *, *, #15, .F. ) ;
#173 = EDGE_CURVE ( 'NONE', #106, #145, #33, .T. ) ;
#174 = DIRECTION ( 'NONE',  ( 2.220446049250313081E-16, 1.000000000000000000, 0.000000000000000000 ) ) ;
#175 = FACE_OUTER_BOUND ( 'NONE', #155, .T. ) ;
#176 = EDGE_LOOP ( 'NONE', ( #28, #10, #81, #197 ) ) ;
#177 = CARTESIAN_POINT ( 'NONE',  ( 5.000000000000002665, 5.000000000000000000, 5.000000000000000000 ) ) ;
#178 = ORIENTED_EDGE ( 'NONE', *, *, #242, .T. ) ;
#179 = PLANE ( 'NONE',  #261 ) ;
#180 = ORIENTED_EDGE ( 'NONE', *, *, #84, .F. ) ;
#181 = CC_DESIGN_DATE_AND_TIME_ASSIGNMENT ( #171, #54, ( #76 ) ) ;
#182 = LINE ( 'NONE', #123, #131 ) ;
#183 = LOCAL_TIME ( 11, 10, 40.00000000000000000, #142 ) ;
#184 = DIRECTION ( 'NONE',  ( 1.000000000000000000, 0.000000000000000000, 0.000000000000000000 ) ) ;
#185 = CC_DESIGN_PERSON_AND_ORGANIZATION_ASSIGNMENT ( #39, #291, ( #272 ) ) ;
#186 = CLOSED_SHELL ( 'NONE', ( #40, #21, #224, #311, #94 ) ) ;
#187 =( NAMED_UNIT ( * ) PLANE_ANGLE_UNIT ( ) SI_UNIT ( $, .RADIAN. ) );
#188 =( GEOMETRIC_REPRESENTATION_CONTEXT ( 3 ) GLOBAL_UNCERTAINTY_ASSIGNED_CONTEXT ( ( #226 ) ) GLOBAL_UNIT_ASSIGNED_CONTEXT ( ( #211, #187, #41 ) ) REPRESENTATION_CONTEXT ( 'NONE', 'WORKASPACE' ) );
#189 = MECHANICAL_CONTEXT ( 'NONE', #150, 'mechanical' ) ;
#190 = EDGE_CURVE ( 'NONE', #203, #284, #130, .T. ) ;
#191 = ORIENTED_EDGE ( 'NONE', *, *, #190, .T. ) ;
#192 = VECTOR ( 'NONE', #86, 1000.000000000000000 ) ;
#193 = COORDINATED_UNIVERSAL_TIME_OFFSET ( 8, 0, .AHEAD. ) ;
#194 = EDGE_LOOP ( 'NONE', ( #314, #268, #253, #191 ) ) ;
#195 = CARTESIAN_POINT ( 'NONE',  ( 5.000000000000000888, 5.000000000000001776, 5.000000000000000000 ) ) ;
#196 = CARTESIAN_POINT ( 'NONE',  ( 5.000000000000000888, -5.000000000000000000, 5.000000000000000000 ) ) ;
#197 = ORIENTED_EDGE ( 'NONE', *, *, #271, .T. ) ;
#198 = DIRECTION ( 'NONE',  ( 0.000000000000000000, -0.000000000000000000, 1.000000000000000000 ) ) ;
#199 = DIRECTION ( 'NONE',  ( -0.000000000000000000, 0.000000000000000000, -1.000000000000000000 ) ) ;
#200 = ORIENTED_EDGE ( 'NONE', *, *, #242, .F. ) ;
#201 = VECTOR ( 'NONE', #241, 1000.000000000000000 ) ;
#202 = DIRECTION ( 'NONE',  ( -1.000000000000000000, 4.857225732735059864E-17, 0.000000000000000000 ) ) ;
#203 = VERTEX_POINT ( 'NONE', #257 ) ;
#204 = DIRECTION ( 'NONE',  ( 1.000000000000000000, -4.857225732735059864E-17, 0.000000000000000000 ) ) ;
#205 = ORIENTED_EDGE ( 'NONE', *, *, #173, .F. ) ;
#206 = CC_DESIGN_PERSON_AND_ORGANIZATION_ASSIGNMENT ( #223, #96, ( #76 ) ) ;
#207 = ADVANCED_FACE ( 'NONE', ( #35 ), #2, .F. ) ;
#208 = CARTESIAN_POINT ( 'NONE',  ( 5.000000000000002665, 5.000000000000000000, 5.000000000000000000 ) ) ;
#209 = AXIS2_PLACEMENT_3D ( 'NONE', #276, #229, #57 ) ;
#210 = DIRECTION ( 'NONE',  ( -0.000000000000000000, 0.000000000000000000, -1.000000000000000000 ) ) ;
#211 =( LENGTH_UNIT ( ) NAMED_UNIT ( * ) SI_UNIT ( .MILLI., .METRE. ) );
#212 = VECTOR ( 'NONE', #97, 1000.000000000000000 ) ;
#213 = DIRECTION ( 'NONE',  ( 0.000000000000000000, 0.000000000000000000, 1.000000000000000000 ) ) ;
#214 = LOCAL_TIME ( 11, 10, 40.00000000000000000, #193 ) ;
#215 = APPROVAL ( #78, 'UNSPECIFIED' ) ;
#216 = CARTESIAN_POINT ( 'NONE',  ( 0.000000000000000000, 0.000000000000000000, 5.000000000000000000 ) ) ;
#217 = VECTOR ( 'NONE', #199, 1000.000000000000000 ) ;
#218 = VECTOR ( 'NONE', #210, 1000.000000000000000 ) ;
#219 = ORIENTED_EDGE ( 'NONE', *, *, #287, .T. ) ;
#220 = CARTESIAN_POINT ( 'NONE',  ( -5.000000000000000888, -4.999999999999998224, 5.000000000000000000 ) ) ;
#221 = COORDINATED_UNIVERSAL_TIME_OFFSET ( 8, 0, .AHEAD. ) ;
#222 = LINE ( 'NONE', #73, #43 ) ;
#223 = PERSON_AND_ORGANIZATION ( #137, #47 ) ;
#224 = ADVANCED_FACE ( 'NONE', ( #175 ), #179, .F. ) ;
#225 = CARTESIAN_POINT ( 'NONE',  ( 5.000000000000000888, 5.000000000000001776, 5.000000000000000000 ) ) ;
#226 = UNCERTAINTY_MEASURE_WITH_UNIT (LENGTH_MEASURE( 1.000000000000000082E-05 ), #211, 'distance_accuracy_value', 'NONE');
#227 = DATE_AND_TIME ( #148, #299 ) ;
#228 = ORIENTED_EDGE ( 'NONE', *, *, #164, .F. ) ;
#229 = DIRECTION ( 'NONE',  ( 0.7071067811865474617, -0.7071067811865475727, 0.000000000000000000 ) ) ;
#230 = ORIENTED_EDGE ( 'NONE', *, *, #260, .T. ) ;
#231 = DIRECTION ( 'NONE',  ( 1.000000000000000000, 0.000000000000000000, 0.000000000000000000 ) ) ;
#232 = CARTESIAN_POINT ( 'NONE',  ( 5.000000000000000888, 5.000000000000001776, -5.000000000000000000 ) ) ;
#233 = VECTOR ( 'NONE', #266, 1000.000000000000000 ) ;
#234 = VERTEX_POINT ( 'NONE', #312 ) ;
#235 = CARTESIAN_POINT ( 'NONE',  ( 5.000000000000000888, 5.000000000000001776, -5.000000000000000000 ) ) ;
#236 = EDGE_LOOP ( 'NONE', ( #303, #228, #172 ) ) ;
#237 = DIRECTION ( 'NONE',  ( 1.734723475976807094E-16, 1.000000000000000000, -0.000000000000000000 ) ) ;
#238 = ORIENTED_EDGE ( 'NONE', *, *, #271, .F. ) ;
#239 = APPLICATION_PROTOCOL_DEFINITION ( 'international standard', 'config_control_design', 1994, #150 ) ;
#240 = LINE ( 'NONE', #93, #218 ) ;
#241 = DIRECTION ( 'NONE',  ( -0.7071067811865475727, -0.7071067811865474617, 0.000000000000000000 ) ) ;
#242 = EDGE_CURVE ( 'NONE', #284, #145, #288, .T. ) ;
#243 = VERTEX_POINT ( 'NONE', #104 ) ;
#244 = PRODUCT_DEFINITION_SHAPE ( 'NONE', 'NONE',  #120 ) ;
#245 = DIRECTION ( 'NONE',  ( 2.220446049250313081E-16, 1.000000000000000000, 0.000000000000000000 ) ) ;
#246 = DATE_AND_TIME ( #167, #183 ) ;
#247 = PERSON_AND_ORGANIZATION_ROLE ( 'creator' ) ;
#248 = CARTESIAN_POINT ( 'NONE',  ( -4.999999999999999112, -5.000000000000000000, -5.000000000000000000 ) ) ;
#249 = CALENDAR_DATE ( 2020, 22, 12 ) ;
#250 = ORIENTED_EDGE ( 'NONE', *, *, #190, .F. ) ;
#251 = FACE_OUTER_BOUND ( 'NONE', #63, .T. ) ;
#252 = LINE ( 'NONE', #128, #140 ) ;
#253 = ORIENTED_EDGE ( 'NONE', *, *, #15, .T. ) ;
#254 = FACE_OUTER_BOUND ( 'NONE', #310, .T. ) ;
#255 = CARTESIAN_POINT ( 'NONE',  ( 5.000000000000000888, 5.000000000000001776, 5.000000000000000000 ) ) ;
#256 = PRODUCT_DEFINITION_FORMATION_WITH_SPECIFIED_SOURCE ( 'ANY', '', #272, .NOT_KNOWN. ) ;
#257 = CARTESIAN_POINT ( 'NONE',  ( -4.999999999999999112, 5.000000000000001776, 5.000000000000000000 ) ) ;
#258 = EDGE_LOOP ( 'NONE', ( #219, #238, #85, #230 ) ) ;
#259 = DIRECTION ( 'NONE',  ( -0.000000000000000000, 0.000000000000000000, -1.000000000000000000 ) ) ;
#260 = EDGE_CURVE ( 'NONE', #234, #14, #64, .T. ) ;
#261 = AXIS2_PLACEMENT_3D ( 'NONE', #283, #98, #202 ) ;
#262 = APPROVAL_STATUS ( 'not_yet_approved' ) ;
#263 = CARTESIAN_POINT ( 'NONE',  ( -5.000000000000000888, -4.999999999999998224, 5.000000000000000000 ) ) ;
#264 = EDGE_CURVE ( 'NONE', #145, #243, #158, .T. ) ;
#265 = LINE ( 'NONE', #13, #201 ) ;
#266 = DIRECTION ( 'NONE',  ( 2.220446049250313081E-16, 1.000000000000000000, 0.000000000000000000 ) ) ;
#267 = EDGE_CURVE ( 'NONE', #61, #124, #285, .T. ) ;
#268 = ORIENTED_EDGE ( 'NONE', *, *, #318, .F. ) ;
#269 = DIRECTION ( 'NONE',  ( 1.000000000000000000, -2.220446049250313081E-16, 0.000000000000000000 ) ) ;
#270 = AXIS2_PLACEMENT_3D ( 'NONE', #160, #213, #292 ) ;
#271 = EDGE_CURVE ( 'NONE', #61, #149, #147, .T. ) ;
#272 = PRODUCT ( 'BK7-LPBSC-10-860', 'BK7-LPBSC-10-860', '', ( #189 ) ) ;
#273 = ORIENTED_EDGE ( 'NONE', *, *, #84, .T. ) ;
#274 = FACE_OUTER_BOUND ( 'NONE', #157, .T. ) ;
#275 = AXIS2_PLACEMENT_3D ( 'NONE', #154, #88, #11 ) ;
#276 = CARTESIAN_POINT ( 'NONE',  ( 5.000000000000002665, 5.000000000000000000, 5.000000000000000000 ) ) ;
#277 = CC_DESIGN_APPROVAL ( #215, ( #256 ) ) ;
#278 = APPROVAL_DATE_TIME ( #227, #215 ) ;
#279 = EDGE_CURVE ( 'NONE', #234, #61, #62, .T. ) ;
#280 = ORIENTED_EDGE ( 'NONE', *, *, #173, .T. ) ;
#281 = VECTOR ( 'NONE', #305, 1000.000000000000000 ) ;
#282 = DIRECTION ( 'NONE',  ( 0.000000000000000000, 1.000000000000000000, 0.000000000000000000 ) ) ;
#283 = CARTESIAN_POINT ( 'NONE',  ( 5.000000000000000888, 5.000000000000001776, 5.000000000000000000 ) ) ;
#284 = VERTEX_POINT ( 'NONE', #156 ) ;
#285 = LINE ( 'NONE', #31, #192 ) ;
#286 = DIRECTION ( 'NONE',  ( -1.000000000000000000, 1.734723475976807094E-16, 0.000000000000000000 ) ) ;
#287 = EDGE_CURVE ( 'NONE', #14, #149, #252, .T. ) ;
#288 = LINE ( 'NONE', #232, #112 ) ;
#289 = ADVANCED_FACE ( 'NONE', ( #315 ), #90, .T. ) ;
#290 = ORIENTED_EDGE ( 'NONE', *, *, #164, .T. ) ;
#291 = PERSON_AND_ORGANIZATION_ROLE ( 'design_owner' ) ;
#292 = DIRECTION ( 'NONE',  ( 1.000000000000000000, 0.000000000000000000, 0.000000000000000000 ) ) ;
#293 = MANIFOLD_SOLID_BREP ( '¾µÏ', #186 ) ;
#294 = DATE_AND_TIME ( #133, #319 ) ;
#295 = DESIGN_CONTEXT ( 'detailed design', #101, 'design' ) ;
#296 = CARTESIAN_POINT ( 'NONE',  ( 5.000000000000000888, -5.000000000000000000, -5.000000000000000000 ) ) ;
#297 = VERTEX_POINT ( 'NONE', #263 ) ;
#298 = AXIS2_PLACEMENT_3D ( 'NONE', #301, #141, #143 ) ;
#299 = LOCAL_TIME ( 11, 10, 40.00000000000000000, #221 ) ;
#300 = PERSON_AND_ORGANIZATION ( #137, #47 ) ;
#301 = CARTESIAN_POINT ( 'NONE',  ( 5.000000000000000888, 5.000000000000001776, 5.000000000000000000 ) ) ;
#302 = PERSON_AND_ORGANIZATION ( #137, #47 ) ;
#303 = ORIENTED_EDGE ( 'NONE', *, *, #132, .F. ) ;
#304 = PLANE ( 'NONE',  #115 ) ;
#305 = DIRECTION ( 'NONE',  ( -0.000000000000000000, -0.000000000000000000, -1.000000000000000000 ) ) ;
#306 = ORIENTED_EDGE ( 'NONE', *, *, #287, .F. ) ;
#307 = LINE ( 'NONE', #83, #166 ) ;
#308 = DIRECTION ( 'NONE',  ( -1.734723475976807094E-16, -1.000000000000000000, 0.000000000000000000 ) ) ;
#309 = APPROVAL ( #51, 'UNSPECIFIED' ) ;
#310 = EDGE_LOOP ( 'NONE', ( #34, #306, #180 ) ) ;
#311 = ADVANCED_FACE ( 'NONE', ( #16 ), #65, .T. ) ;
#312 = CARTESIAN_POINT ( 'NONE',  ( 5.000000000000000888, -5.000000000000000000, 5.000000000000000000 ) ) ;
#313 = FACE_OUTER_BOUND ( 'NONE', #176, .T. ) ;
#314 = ORIENTED_EDGE ( 'NONE', *, *, #46, .F. ) ;
#315 = FACE_OUTER_BOUND ( 'NONE', #4, .T. ) ;
#316 = CLOSED_SHELL ( 'NONE', ( #151, #108, #207, #289, #162 ) ) ;
#317 = AXIS2_PLACEMENT_3D ( 'NONE', #216, #320, #184 ) ;
#318 = EDGE_CURVE ( 'NONE', #297, #243, #240, .T. ) ;
#319 = LOCAL_TIME ( 11, 10, 40.00000000000000000, #134 ) ;
#320 = DIRECTION ( 'NONE',  ( -0.000000000000000000, 0.000000000000000000, 1.000000000000000000 ) ) ;
#321 = EDGE_CURVE ( 'NONE', #149, #109, #265, .T. ) ;
ENDSEC;
END-ISO-10303-21;
